Easy Guitar Song: Chasing Cars

This is the second song I’m trying to learn in addition to Leaving on a jet plane.
Very easy intro and only 3 chords for the chorus: A, Eminor, and Dsus2.

Thank you Gandalf for helping me practice this song!
In about a week, I’ll post a user video of my best attempt to replicate this.

http://www.tabs4acoustic.com/en/guitar-tabs/snow-patrol-tabs/chasing-cars-acoustic-tab-238.html

A
  We'll do it all
E
  Everything
Dsus2
 On our own
A

A
  We don't need
E
  Anything
Dsus2
  Or anyone
A

           A
If I lay here
             E
If I just lay here
                     Dsus2
Would you lie with me
                             A
And just forget the world?

A
  I don't quite know
E
  How to say
Dsus2
  How I feel
A

A
  Those three words
E
  Are said too much
Dsus2
  They're not enough
A
 
           A
If I lay here
             E
If I just lay here
                     Dsus2
Would you lie with me
                             A
And just forget the world?

                            A
Forget what we're told
                      E
Before we get too old
                  Dsus2
Show me a garden
                              A
That's bursting into life

A
  Let's waste time
E
  Chasing cars
Dsus2
  Around our heads
A

A
  I need your grace
E
  To remind me
Dsus2
  To find my own
A

           A 
If I lay here
             E
If I just lay here
                     Dsus2
Would you lie with me
                             A
And just forget the world?

                            A
Forget what we're told
                      E
Before we get too old
                  Dsus2
Show me a garden
                              E
That's bursting into life

              A
All that I am
               E
All that I ever was
                       Dsus2
Is here in your perfect eyes
                         A
They're all I can see

                    A
I don't know where
                         E
Confused about how as well
                                 Dsus2
Just know that these things
                                         A
Will never change for us at all

           A
If I lay here
             E
If I just lay here
                     Dsus2
Would you lie with me
                             A
And just forget the world?


Riff de la vidéo:

e--------------------------------------------------------------------|
b--------------------------------------------------------------------|
g--9-9-9-9-9-9-9-9-9-9-9-9-9-9-9-9-9-9-9-9-9-9-9-9-9-9-9-9-9-9-9-9---|
d-7-7-7-7-7-7-7-7-7-7-7-7-7-7-7-7-6-6-6-6-6-6-6-6-6-6-6-6-6-6-6-6----|
a--------------------------------------------------------------------|
E--------------------------------------------------------------------|

e--------------------------------------------------------------------|
b--------------------------------------------------------------------|
g--9-9-9-9-9-9-9-9-9-9-9-9-9-9-9-9-9-9-9-9-9-9-9-9-9-9-9-9-9-9-9-9---|
d-0-0-0-0-0-0-0-0-0-0-0-0-0-0-0-0-7-7-7-7-7-7-7-7-7-7-7-7-7-7-7-7----|
a--------------------------------------------------------------------|
E--------------------------------------------------------------------|

Leave a Reply

Fill in your details below or click an icon to log in:

WordPress.com Logo

You are commenting using your WordPress.com account. Log Out / Change )

Twitter picture

You are commenting using your Twitter account. Log Out / Change )

Facebook photo

You are commenting using your Facebook account. Log Out / Change )

Google+ photo

You are commenting using your Google+ account. Log Out / Change )

Connecting to %s